[% META title='Deep Purple Tablature' nonav = 1 nofullmenu = 1 %]

The Unwritten Law

(Blackmore/Gillan/Glover/Paice)

From "The House Of Blue Light" 1972.

Intro:
|------------------------------------------------------------------------
|------------10----------------------------------------------------------
|-12121210-------121212101210------------1011------------------12121210--
|---------12-----------------1210--121012-----12-------------12--------12
|--------------------------------12-------------101210--1012-------------
|-----------------------------------------------------13-----------------
 
-------------------------------------------------------------------------
-10--------------------13------------------------------------------------
----121212101210---------121210--10----555-------------------------------
----------------1210-----------12--12-----565355-3-----------------------
---------------------------------------------------5---------------------
-------------------------------------------------------------------------
 
-------------------------------------------------------------------------|
-------------------------------------------------------------------------|
-------------------------------------------------------------------------|
-----3-----3----2--------------------------------------------------------|
---5-----5-----3---------------------------------------------------------|
--5-----5-----3----------------------------------------------------------|
 
Verse:
 
|------------------------------------------------------------------------
|------------------------------------------------------------------------
|------7------5--------4------3--------2---------------------------------
|----7------7--------5------3--------3------3-3------3-----3---2---------
|--5------5--------5------5--------5------5--------5-----5----3----------
|-------------------------------------------------5-----5----3-----------
 
-------------------------------------------------------------------------|
---------------------------------------------------------6----8----------|
------7------5--------4------5--------2------------------7----9----------|
----7------7--------5------3--------3------3-5------3---7---10-----------|
--5------5--------5------5--------5------5--------5------5----7----------|
-------------------------------------------------5-----------------------|
 
 
Chorus:
 
  F      C                  Dm       Bb    F     
|----------------------------------------------
|----------------------------------------------
|--------5------------------7--------3---------
|-3------5------------------7--------3-----3---
|-3------3------------------5--------1-----3---
|-1----------------------------------------1---
 
  Iíve got the evidence  I know you broke_______ the unwritten law 
  
 
 
 Dm  C  Dm     F         C              Dm                 C    Bb    C Bb
-------------------------------------------------------------------------
-------------------------------------------------------------------------
-7-7-5--7-(7)------------5--------------7------------------5----3--------
-7-7-5--7-(7)--3---------5--------------7------------------5----3--------
-5-5-3--5-(5)--3---------3--------------5------------------3----1-----3-1
---------------1---------------------------------------------------------
 
                Another town another one___ night stand___ You know____
 
            C   Gm 
------------------------------------------------------------------------
------------------------------------------------------------------------
------------------------------------------------------------------------
------------------------------------------------------------------------
------------3------------------------------------------------------------
-----------------3-------------------------------------------------------
 
  You broke the law______________________
 
 
Interlude:
 
|------------------------------------------------------------------------|
|------------------------------------------------------------------------|
|-----7------5------4------3-------2-------------------------------------|
|---7------7------5------3-------3------3-5-----3-----3----2-------------|
|-5------5------5------5-------5------5-------5-----5----3---------------|
|--------------------------------------------5-----5----3----------------|
 
 
Solo:
 
|------------------------------------------------------------------------
|------------------------------------------------------------------------
|------------------------------------------------------------------------
|-(5)------------------------------0------------02--------020---0-02-0--0
|-----(5)-----5--5--03-2-0-----------3-2-----------3-(3v)----303-3-------
|--------------------------3-(3)---------3-(1)---------------------------
 
-------------------------------7-5--------------------------------------
--------------------------6-6--------588-556865-565-5-------------------
-----------------457575------------------------7---7-747454-4-----------
--75----5---7-7--------7-----------------------------------7-47576-677--
-----7------------------------------------------------------------8-----
------------------------------------------------------------------------
 
------------------------------------------------------------------------
-------------------------------------5----------5-------5--------6-575--
-5-754--434-----------------------7-----------------7------------------7
-------7---754-4532-23232--------------7-7-----------------7-(7)--------
--------------7----3-----532--53----------------------------------------
----------------------------53------------------------------------------
 
-------15------|
---------------|
---------------|
----5----------|
--7------------|
-5-------------|

Tabbed by Maxime Legault