[% META title='Deep Purple Tablature' nonav = 1 nofullmenu = 1 %]

The Gypsy

(Blackmore/Coverdale/Hughes/Lord/Paice)

From "Stormbringer", 1974

Riff 1

E|---------------------------------------------------------------------
B|---------------------------------------------------------------------
G|--9-7----------------------------------------------------------------
D|------9p7\5-7---5p4---------------5p4--------------------------------
A|--------------7-----7-7--5h7-7--7-----7-7--5h7-7---------------------
E|---------------------------------------------------------------------

Riff 2

E|--12-10--------------------------------------------------------------
B|--------12p10\8-10---8p7-----8p7-----8p7-----------------------------
G|-------------------9-----9-9-----9-9-----9---------------------------
D|---------------------------------------------------------------------
A|---------------------------------------------------------------------
E|---------------------------------------------------------------------

Riff 2a

E|--12-10--------------------------------------------------------------
B|--------12p10\8-10---8p7--------------8p7----------------------------
G|-------------------9-----9-9-7h9-9--9-----9-9-7h9-9------------------
D|---------------------------------------------------------------------
A|---------------------------------------------------------------------
E|---------------------------------------------------------------------
       

   Am7           Bm7            Em
(1)Tell me gypsy can you see me in your crystal ball
(2)I came to see you once before one hundred years ago
  
   C                   D        Bm7
   Iím asking you what can I do my backís against the
wall
   You took my hand and broke the spell that should
have let me go
  
   Em    Em\D               Am     C       D         
   B7
   And I canít hold on much longer so Iíve come to you
my friend
   But my years have gone so slowly so Iím hear again
my friend
  
   C          D                Em
   For now my life seems at an end
   For now my life seems at an end

Solo
E|---------------------------------------------------------------------
B|--10-/12~~~-12/13-12-10-/8~~--7-8-8/10-8-7~~--5-7-7/8-7-3/5~~--------
G|---------------------------------------------------------------------
D|---------------------------------------------------------------------
A|---------------------------------------------------------------------
E|---------------------------------------------------------------------

E|----/10~~--8-10-10/12-10-7~~--/5-7-7/8-7\5---------------------------
B|--7-----------------------------------------8~~-10~~-----------------
G|---------------------------------------------------------------------
D|---------------------------------------------------------------------
A|---------------------------------------------------------------------
E|---------------------------------------------------------------------

Boris Dvojakovski