[% META title='Deep Purple Tablature' nonav = 1 nofullmenu = 1 %]

Anya

(Blackmore/Gillan/Glover/Lord)

From The Battle Rages On", 1993

Main Riff:
E---------------------------------------------------------------------
B---------------------------------------------------------------------
G---9---10--7---9------------7----------------------------------------
D-----------------------10-------9---10---------7---9---10---7----9---
A-------------------------------------------10------------------------
E---------------------------------------------------------------------
E---------------------------------------------------------------------
B---------------------------------------------------------------------
G---------------------------------------------------------------------
D--------7---9---10---9--------7--------------------------------------
A---10--------------------10------------------------------------------
E---------------------------------------------------------------------
Intro to verses:
(very fast)
E---------------------------------------------------------------------
B---------------------------------------------------------------------
G---2---4---5--------2---4---5----------------------------------------
D---2---4---5--------2---4---5----------------------------------------
A---------------------------------------------------------------------
E---------------------------------------------------------------------
Verses:
E---------------------------------------3-----------------------------
B---------------------------------------3-----------------------------
G--------------------------------5------4-----------------------------
D---2-----5-----7----2-----2-----5------5-----------------------------
A---2-----5-----7----2-----2-----3------5-----------------------------
E---------------------------------------3----------------------------- 
After the verses (Im nearly sure that this part is wrong)
E---------------------------------------------------------------------
B---------------------------------------------------------------------
G-----------------------------------12--10----------------------------
D---10------12--12--10--12--12--10--12--10----------------------------
A---10------12--12--10--12--12--10------------------------------------
E---------------------------------------------------------------------
 
E---------------------------------------------------------------------
B---------------------------------------------------------------------
G----------9---10--7---9--------------9---10---7---9----x-------------
D----------9---10--7---9--------------9---10---7---9----x-------------
A---------------------------------------------------------------------
E---0--0-------------------0--0--0--0---------------------------------
Back to main riff,and start again.
Tabbed by: Javier Corral